Bruce Bernhart Mandolin Websites
Updated!


   Bruce Bernhart Mandolin Topics


Part of the Bruce Bernhart Online Lessons and Tab Series

In Minnesota, Bruce Bernhart has been a mandolin player/enthusiast since the 1980's


Bruce Bernhart Mandolin Websites

The Bernhart Mandolin Webpages explore the history of the mandolin, buying and building mandolins, the various makes and models of mandolins available on the market, basic chord structures, different styles of playing, practice exercises and performance.


Look for additional Bruce Bernhart mandolin topics 



Bruce Bernhart Mandolin Websites


The Bruce Bernhart Websites
Dixie Hoedown- Scott Tichenor (mandolincafe.com)
(Standard, popular tune.  Good one to have in your repertoire!)

        G                           C
-----||--------------------------|---------------------
-5-3-||-2--0--2--3---2--0--------|-------------3--5--3-
-----||--------------------5--4--|-2-----2--5----------
-----||--------------------------|----5----------------
 |_|    |__|__|__|   |__|__|__|    |__|__|__|  |  |__|


  G                           D
---------------------------|---------------------------
--2--0--2--3---2--0-----2--|--0------------------5--3--
---------------------5-----|-----5--2--4---0-----------
---------------------------|---------------------------
  |__|__|__|   |__|__|__|     |__|__|__|   |     |__|


  G                          C
---------------------------|---------------------------
--2--0--2--3---2--0--------|--------------3-----5--3---
---------------------5--4--|-2-----2--5----------------
---------------------------|----5----------------------
  |__|__|__|   |__|__|__|    |__|__|__|   |     |__|


                            ____________________________
                           |1.
  G            D           |  G
---------------------------|---------------------------
--2--5--2------0--3--0-----|-----------0---------5--3--
-----------5------------4--|--5--4--5------5-----------
---------------------------|---------------------------
  |__|__|__|   |__|__|__|     |__|__|__|   |     |__|

___________________________
2.                         |
  G                        |  G
--------------------------||--3--2--3--5---7--5--3--0--
-----------0------0--2--5-o|o--------------------------
--5--4--5------5----------o|o--------------------------
--------------------------||---------------------------
  |__|__|__|   |__|__|__|     |__|__|__|   |__|__|__|



  Bm (B7)*                    C
--2--0--2--3---5--3--2-----|--0-----0--2---3--0-----0--
------------------------5--|-----3---------------3-----
---------------------------|---------------------------
---------------------------|---------------------------
  |__|__|__|   |__|__|__|     |__|__|__|   |__|__|__|



  G                           D
-----------0---------------|---------------------------
--5--4--5------5-----0--2--|--3--2--3--5---3--2--0--2--
---------------------------|---------------------------
---------------------------|---------------------------
  |__|__|__|   |     |__|     |__|__|__|   |__|__|__|


  D
---------------------------|---------------------------
--3--2--0------------------|--------0--2---3--0-----0--
-----------5---4--2--0--2--|--4--5---------------4-----
---------------------------|---------------------------
  |__|__|__|   |__|__|__|     |__|__|__|   |__|__|__|


 ______________________________________________________
|1.                        |                         2.|
  G                           G       to the beginning
---------------------------|---------------------------||
-----------0---2-----2--5-o|-----------0--------5--3--o||
--5--4--5---------5-------o|--5--4--5------5----------o||
---------------------------|---------------------------||
  |__|__|__|   |__|__|__|     |__|__|__|   |    |__|

Thank you for visiting the Bruce Bernhart mandolin websites!


Bruce Bernhart Mandolin Websites


Be sure to visit the other Bruce Bernhart Mandolin Websites:

Bruce Bernhart mandolin rock tabs

Bruce Bernhart mandolin lesson on scales, meter, using a metronome

Bruce Bernhart mandolin purchase tips

Bruce Bernhart mandolin orchestras, tuning

Bruce Bernhart mandolin lessons- chord groups and intervals

Bruce Bernhart on mandolin family history

Bruce Bernhart on string and saddle adjustment

Bruce Bernhart beginning mandolin lessons one and two

Bruce Bernhart on more chord triads, blues patterns, and self-tuning

Bruce Bernhart on the mandolin family tree

Bruce Bernhart mandolin chord diagrams


Bruce Bernhart on temperature considerations

Bruce Bernhart lessson on mandolin flats and sharps


Bruce Bernhart lesson on chromatic scales, circle of 5ths and meter


Bruce Bernhart on mandolin chord theory

Bruce Bernhart mandolin C and G major chord diagrams

Bruce Bernhart on emergence of the modern mandolin

Bruce Bernhart on two finger mandolin chords

Bruce Bernhart on whole and half steps on the mandolin

Bruce Bernhart perpetual motion practice excercises

Bruce Bernhart on playing waltzes on the mandolin


Bruce Bernhart on majors, minors and sevenths


Bruce Bernhart Mandolin Websites

Also, check out the Bruce Bernhart RV Websites and Blogs:

Solar power for your RV

The care and feeding of your RV battery

The sport of "geocaching" and RV refrigeration basics

The basics of RV power inversion

RV travel tips and tire care

Advanced discussion on power inversion

Tips on buying a house battery and cold weather maintenance

RV Insurance basics

Buying the right generator for your RV and portable power

RV television reception options

Care and maintenance of the RV air conditioner

Top RV destinations

RV long-term supplies and weight considerations

RV Insurance- Road protection and bodily injury coverage

RV battery types and winter charging considerations

Deep cycle battery basics

Website Builder